รูปแบบของ "แท็บ"

     การอ่านแท็บกีตาร์นั้นค่อนข้างจะเรียนรู้ได้ง่าย ในระยะเวลาสั้น ๆ แต่หนึ่งปัญหาที่แตกต่างจากโน๊ตดนตรีสากลก็คือ แท็บบางรูปแบบจะไม่มีข้อบ่งชี้เรื่องของระยะเวลาของโน๊ตที่เป็นมาตรฐานแน่นอน เช่นรูปแบบของ ASCII TAB เป็นต้น

ชนิดของกีตาร์แท็บ
กีตาร์แท็บมีรูปแบบหลัก ๆ อยู่ 3 รูปแบบ คือ Ascii Tab, Basic Tab, Tab with Notation

Ascii Guitar TAB
E||-----------------------------|---------------------------------|
B||---------3------------3------|---------------------------------|
G||*----------5------------0----|--------0---0---------------2p-0-|
D||*--0--0-------0------------0-|-------------------0-2p-0--------|
A||----------------3--3---------|--------------0h-2--------2------|
E||-----------------------------|--3--3---------------------------|


     ASCII Tab เป็นรูปแบบที่เราสามารถพบเห็นได้บ่อย และมีการใช้กันอย่างกว้างขวางทางอินเตอร์เน็ต เช่นตามเว็บบอร์ด หรือเว็บไซต์ทั่วไป เพราะแท็บชนิดนี้สามารถทำได้ง่าย ๆ หรือทำได้ทันที เพราะใช้ตัวเลข ตัวอักษรธรรมดา และสัญลักษณ์ต่าง ๆ ที่พร้อมจะสื่อสารได้เลยบนแป้นคีย์บอร์ด แต่ถึงเม้ว่าแท็บรูปแบบนี้จะสามารถสร้างและสื่อสารได้ง่าย แต่ก็ยังมีข้อจำกัด หรือบกพร่องอยู่ เช่น
- ถ้าไม่ได้ใช้ฟอนต์ที่ตัวอักษรความกว้างเท่ากัน (Monospaced Font) จะทำให้ดูไม่เป็นระเบียบ และอ่านได้ยาก
- ค่อนข้างยุ่งยาก ถ้าเราต้องการแสดงเทคนิคบางอย่าง เช่น การดันสาย การทำเสียงสั่น เป็นต้น
- ไม่ค่อยมีรายละเอียดระยะเวลาการเล่นโน๊ต หรือจังหวะ

     ASCII TAB เป็นรูปแบบ เพื่อให้มนุษย์สามารถอ่านได้ มากกว่าที่จะให้อ่านได้ผ่านทางโปรแกรม ด้วยเหตุนี้จึงไม่ได้กำหนดมาตรฐานอย่างเคร่งครัด อาจจะมีขาด ๆ บ้าง หรือเสริมทดแทนได้หลากหลายวิธี
มีโปรแกรมคอมพิวเตอร์สำหรับสร้างกีตาร์แท็บที่สามารถบันทึกไฟล์ ASCII TAB ได้ แต่เนื่องจากความไม่แน่นอนของรูปแบบ จีงมีเพียงไม่กี่โปรแกรมเช่น G7, ที่อ่าน ASCII TAB ที่สร้างโดยมนุษย์ได้

     ส่วนใหญ่คนที่อ่าน Ascii Tab ก็จะฟังต้นฉบับเพลงนั้น ๆ ไปด้วย หรือจำได้ขึ้นใจแล้ว ก็จะทำให้ง่ายที่จะเล่นครับ
สำหรับ Ascii Tab นั้น ก็มีความพยายามจะใส่ข้อมูลเพิ่มเติมเข้าไป เช่น ระยะเวลาของตัวโน๊ต แต่ก็ยังไม่เป็นที่นิยมซักเท่าไหร่ เพราะแท็บชนิดนี้เน้นไปที่ความง่าย ๆ ซะมากกว่า ทั้งในส่วนของผู้เขียน และผู้อ่าน

ตัวอย่าง Ascii Tab ที่มีการระบุระยะเวลาของโน๊ตเพิ่มด้วย จะสังเกตุเห็นตัว E กับ S ที่ด้านบนนะครับ
      E  E  S E  S E  E  S E  S    E  E  E.  S S  S S S  S S S  S 
E||-----------------------------|---------------------------------|
B||---------3------------3------|---------------------------------|
G||*----------5------------0----|--------0---0---------------2p-0-|
D||*--0--0-------0------------0-|-------------------0-2p-0--------|
A||----------------3--3---------|--------------0h-2--------2------|
E||-----------------------------|--3--3---------------------------|

Duration Legend
---------------
W - whole
H - half
Q - quarter
E - 8th
S - 16th
T - 32nd
X - 64th
. - note dotted
|-n-|  - n-tuplets

Basic Guitar Tab

     แท็บแบบพื้นฐาน ที่มีรายละเอียดของระยะเวลาในการเล่นอยู่ด้วย แท็บชนิดนี้จะทำให้เราสามารถทราบว่าเราควรเล่นแต่ละโน๊ตยาวนานเท่าไหร่ แท็บชนิดนี้ส่วนใหญ่จะเป็นรูปภาพที่ใช้ในหนังสือ หรือแมกกาซีน


Guitar TAB with Notation
     แท็บชนิดนี้จะมีโน๊ตมาตรฐาน กับแท็บพื้นฐานคู่กันมาเลย แท็บชนิดนี้จะทำให้เราสามารถทราบระยะเวลาของโน๊ตที่เราจะเล่น และเทคนิคการเล่น ซึ่งนั่นก็หมายความว่าเราจำเป็นจะต้องทราบค่าตัวโน๊ตต่าง ๆ และก็ไม่ได้ยากเกินไปที่จะเรียนรู้ ถ้าเราอ่านแท็บประเภทนี้ชำนาญแล้ว เราสามารถเล่นกีตาร์ได้พอ ๆ กับมืออาชีพเลยละครับ...
 http://market.chordtabguitar.com/